Последние новости
09 дек 2016, 10:42
Выпуск информационной программы Белокалитвинская Панорама от 8 декабря 2016 года...
Поиск

» » » » Аккорды - Аквариум: Город


Аккорды - Аквариум: Город

Аккорды - Аквариум: ГородПод небом голубым
Есть город золотой,
С прозрачными воротами
И яркою звездой.

А в городе том сад,
Все травы да цветы
Гуляют там животные
Hевиданной красы.

   Одно - как желтый огнегривый лев,
   Другое - вол, исполненный очей,
   С ними золотой орел небесный,
   Чей так светел взор незабываемый.

А в небе голубом
Горит одна звезда.
Она с тобой, о ангел мой,
Она твоя всегда.

Кто любит - тот любим,
Кто светел - тот и свят.
Пускай ведет звезда тебя
Дорогой в дивный сад.

   Тебя там встретит огнегривый лев
   И синий вол, исполненный очей,
   С ними золотой орел небесный,
   Чей так светел взор незабываемый.

куплет (дважды)


 Am                                   Dm
--0---------0-------0--1-0------1-0-----
--1-0----0h1---1-3-1-0-1-1h3-1--3--3-1-0h1-3---3-1-3-0-
--2--2-1-2---2--2----------------------
-------------------0--------------
-0---------0------------------3-----
----------------------------------

пpипев

A7      Dm      Dm/Bb7(?) G       C       A7      Dm      Dm/Bb7(?)
----1----1----1--3---3----0----0----1----1-
-2--2----3----3-----0----1----2----3----3--
--0----2----2-----0----0----0----2----2---
-2----0----3-------------2----0----3----
------------------3----------------
--------------3--------------------
F E Dm      Dm/Bb7? F E Am
-1-0----1----1-1-0-0--
-1-0---3----3--1-0-1--
-2-1--2----2---2-1-2--
---0----3-------
-3-2---------3-2-0--
----------------
15 май 2007, 15:03
Читайте также
Информация
Комментировать статьи на сайте возможно только в течении 100 дней со дня публикации.